Muusikoiden.net Keskustelu: Körsöimmät mainosjollotukset

Aerodactev05.06.2004 12:54:51
Ahaa! Nyt ei sitten mainitakaan kaameita päähänjääviä jollotuksia, vaan keksitään niitä itse. (Enkä ihmettele, vaikka joku yritys nämä itselleen ryöstäisi)
 
Minä aloitan:
 
Kaksi juustoisaa laulajaa, mies ja nainen ryyditettynä kevyellä vokoodauksella:
 

    C        Am   F         G
Anna radion soida kovaa
   C        D       Em     
Ja kuuntele Radio Novaa!1
 
hjukke05.06.2004 12:57:53
Ahaa! Nyt ei sitten mainitakaan kaameita päähänjääviä jollotuksia, vaan keksitään niitä itse. (Enkä ihmettele, vaikka joku yritys nämä itselleen ryöstäisi)
 

 
Kaksi juustoisaa laulajaa, mies ja nainen ryyditettynä kevyellä vokoodauksella:

 
Mites mulletti tai viikset?
leka05.06.2004 13:18:22
"Än är jii, än är jii, paskaa musaa vaan"
Snowblind05.06.2004 13:43:58

Em   C     D    Em
 
Ään  Äär  Jii   JEEEEE
 
Bilharzia05.06.2004 13:48:05

 
A    G      D
Tule Koo-kauppaan!!
 
Am   G      D
Potkimme lintuhaukkaa!!
 
A       G        D
Sitten ravaamme laukkaa!!
 
Am     G      D
Munaasi minä haukkaan!!
 
A    G    G#    D   
SIIS TULE KOO-KAUPPAANN!!!
 
lapio05.06.2004 17:19:56

D    C      A
Osta maidot Arlalta.
 
D     C      A
Hymyilevältä Karjalta
 
D      C    A
Lypsin Itse Haarukalla!
 
|--------------|-------------|
|--5-7-5-7-5---|-------------|
|--------------|-4--5~-------|
|--------------|-------------|
|--------------|-------------|
|--------------|-------------|

 
Edit: säätöä
Aerodactev05.06.2004 17:23:55
funk
 

 
Dm
Maistuisko sulle suklaarusina
A#
tai hedelmäkakku
A7
Stefanin makeistehdas taitaa
D
olla jo tuttu
lapio05.06.2004 17:24:47
Pitäisiköhän näistä nauhoittaa demoja.
Snowblind05.06.2004 17:28:16
Pitäisiköhän näistä nauhoittaa demoja.
 
Hoho, seuraava mnetin näitä musantekoskaboja. Jokainen tekee biisin joistakin näistä biiseistä oman sovituksensa ja äänestetään paras.
Antti198705.06.2004 17:31:51
Hoho, seuraava mnetin näitä musantekoskaboja. Jokainen tekee biisin joistakin näistä biiseistä oman sovituksensa ja äänestetään paras.

Hyvä idea!! Mikäs o deadline??
leka05.06.2004 17:33:42
Hyvä idea!! Mikäs o deadline??
 
Juuu!!! Pitäisikö valita kuitenkin joku kuvitteellinen tuote? Ettei tule tuotesuojat ja muut kiusaksi?
Antti198705.06.2004 17:35:26
No jaa, mutta sovitaanko että jokainen siis tekee sen itse, eikä oteta nuita toisten jo sanoittamia?
leka05.06.2004 17:49:51
No jaa, mutta sovitaanko että jokainen siis tekee sen itse, eikä oteta nuita toisten jo sanoittamia?
 
Juu tietty
PoLFus05.06.2004 18:59:37
Leaf karkit (valssi)
 
Intro: Em C D Em C H7
 
Em C H7
 
Lefa Lefa Lefa Lefa Lefa Lefa LEEEFA
 
Em C H7
 
Lefa Lefa Lefa Lefa Lefa Lefa LEEEFA
 
Outro (sweeping):
 
|--------------------12-15-12--------------------
|-----------------12-----------12-----------------
|--------------12-----------------12--------------
|-----------14-----------------------14-----------
|--------14-----------------------------14--------
|-12-15-----------------------------------15-12~
Da Make05.06.2004 19:03:12
ja Maatuu laulut
 
Suoli poo
lapio05.06.2004 20:43:52
Nauhotin huviksein, mutta en laula nyt. Ihan kamala.
Aksu8905.06.2004 20:46:24
Leaf karkit (valssi)

Intro: Em C D Em C H7

Em C H7

Lefa Lefa Lefa Lefa Lefa Lefa LEEEFA

Em C H7

Lefa Lefa Lefa Lefa Lefa Lefa LEEEFA

Outro (sweeping):

|--------------------12-15-12--------------------
|-----------------12-----------12-----------------
|--------------12-----------------12--------------
|-----------14-----------------------14-----------
|--------14-----------------------------14--------
|-12-15-----------------------------------15-12~

 
Voin kuvitella.... Hoho! Plussan sait!
PoLFus05.06.2004 21:37:49

D    C      A
Osta maidot Arlalta.
 
D     C      A
Hymyilevältä Karjalta
 
D      C    A
Lypsin Itse Haarukalla!
 
|--------------|-------------|
|--5-7-5-7-5---|-------------|
|--------------|-4--5~-------|
|--------------|-------------|
|--------------|-------------|
|--------------|-------------|

 
Edit: säätöä

 
mulle tuli visio:
 
http://personal.inet.fi/taide/kakofonia/Arla.mp3
Bilharzia05.06.2004 21:54:48

 
A
Tule kauppaan
 
E
Meillä on kaikkee
 

 

 

 

 

 

 

 

 

 

 

 

 

 

 

 

 

 

 

 

 

 
Outro
 
|--2---|----------------|---------------|---------------|------------------|
|------|-5-4------------|-4-------------|---------------|------------------|
|------|-----5-4-2---5--|---5-4-2-----5-|-4-2---------2-|------------------|
|------|-----------5----|---------5-4---|-----5-4-2-1---|-5-4-2-1----------|
|------|----------------|---------------|---------------|---------3-2-0----|
|------|----------------|---------------|---------------|------------------|
|      |                |               |               |                  |
|      |                |               |               |                  |
|------|----------------|---------------|---------------|------------------|
|--4---|----------------|---------------|---------------|------------------|
|------|-5-4-2-------5--|-4-2---------2-|---------------|------------------|
|------|-------5-4-2----|-----5-4-2-1---|-5-4-2-1-----4-|-2-1--------------|
|------|----------------|---------------|---------3-2---|-----3-2-0--------|
|------|----------------|---------------|---------------|-----------3-2----|
 
|----------------------|----------------|------------|---------------------|
|----------------------|----------------|------------|---------------------|
|-------------------4--|-4---4---4--5---|------------|---------------------|
|-2-----------------1--|-2---4---5--7---|----7s9~----|----------s9---9-----|
|-2--------------------|----------------|------------|---------------7-----|
|-0--0--0--0--0--0-----|----------------|------------|---------------0-----|
 
|-------------------|----------------|---------------|---------------------|
|-------------------|----------------|-------11------|---12----------------|
|----------------4--|-4--4--4--4--5--|---------------|---------------------|
|----------------1--|-2--4--4--5--7--|--------8------|----9-----------9----|
|-------------------|----------------|---------------|----------------7----|
|-0--0--0--0--0-----|----------------|---------------|----------------0----|
 
|-------------------|----------------|----------|--------------------------|
|-------------------|----------------|----------|--------------------------|
|----------------4--|-4--4--4--4-----|----------|--------------------------|
|----------------1--|-2--4--4--5--h7-|---------5|h9p7p5-9p7p5-9p7-9p7p5----|
|-------------------|----------------|----------|-----------------------9-7|
|-0--0--0--0--0-----|----------------|----------|--------------------------|
 
|-------------------|----------------|----------------|--------------------|
|-------------------|----------------|----------------|--------------------|
|----------------4--|-4--4--4--4-----|----------------|--------------------|
|----------------1--|-2--4--4--5--7~-|----------------|------4-------------|
|-------------------|----------------|-----------4----|------2-------------|
|-0--0--0--0--0-----|----------------|-----------2----|--------------------|
 
|-15-12s14-15-17-14-15-17s19-17-15-14-17-|-15-14-12-15-14-12s10-14-12-10s8--
|----------------------------------------|----------------------------------
|----------------------------------------|----------------------------------
|----------------------------------------|----------------------------------
|----------------------------------------|----------------------------------
|----------------------------------------|----------------------------------
 
-12-|-10-8--10-8-7-5----8p|7p5-----7h8p7p5--------------------|-----|------|
----|----------------8----|----8p6---------8p7p5--------------|-----|------|
----|---------------------|----------------------8p7p5-4------|-----|------|
----|---------------------|------------------------------7p5p4|-----|------|
----|---------------------|-----------------------------------|7----|------|
----|---------------------|-----------------------------------|-----|------|
 
                    |--------|---------|-0------------------------|----------------------------|
|--------|-----0---|-0------------------------|----------------------------|
|--------|---------|-0------------------------|----------------------------|
|--------|---------|-2------------------------|----------------------------|
|--------|---------|-2------------------------|----------------------------|
|--------|---------|-0------------------------|----------------------------|
 
|-----------------|----------------|--------------|------------------------|
|--3--------------|----------------|--------------|------------------------|
|--0--------------|----------------|--------------|------------------------|
|--2--------------|---------4------|--------5-----|-----------------4------|
|--2--------------|---------6------|--------7-----|-----------------6------|
|--0--------------|----------------|--------------|--0--0--0--0--0---------|
 
|-----------------|--------------------|---------------|-------------------|
|-----------------|--------------------|---------------|-------------------|
|-----------------|----------------7---|------------5--|----------------6--|
|-4--------5------|----------------6---|------------7--|----------------8--|
|-6--------7------|----------------7---|---------------|-0--0--0--0--0-----|
|----------0------|-0--0--0--0--0------|---------------|-------------------|
 
|-----------------|---------------------------|----------------------------|
|-----------------|--10p8p7-------------------|----------------------------|
|--6----------8---|---------9p8---------------|----------------------------|
|--8----------9---|--------------10p9p7-------|----------------------------|
|-----------------|---------------------10p9p7|s6--------------------------|
|-----------------|---------------------------|----------------------------|
 
  
|----------------------|-------------------------|------------|---------------|
|----------------------|----------------------5--|------------|---------------|
|----------------------|----------------------5--|------------|---------------|
|-5--------------------|----------------------5--|------------|---------------|
|-7--------------------|-------------------------|------------|---------------|
|----0--0--0--0--0--0--|-0--0--0--0--0--0--0-----|0-0-0-0-0-0-|0-0-0-0-0-0-0-0|
 
|----------------------|----------------------|------------------|---------|
|-1--------------------|-------------------5--|----------------4-|---------|
|-2--------------------|-------------------4--|----------------4-|--------5|
|-2--------------------|-------------------4--|----------------4-|--------7|
|-0--0--0--0--0--0--0--|-0--0--0--0--0--0--2--|-2--2--2--2--2----|2-2-2-2--|
|----------------------|----------------------|------------------|---------|
 
|--------------------|----------------|-------------|----------------------|
|--------------------|-------------5--|-------------|-5--------5-----------|
|--------------------|-------------5--|-------------|-5--------5-----------|
|-5------------------|---5----5----5--|-------------|-5--------5-----------|
|-7------------------|---7----7-------|-------------|----------------------|
|---0--0--0--0--0--0-|-0----0----0----|-------------|----------------------|
 
|-------------------------------|-----------------------|------------------|
|-------------------------------|--------------------5--|------------------|
|-------------------------------|--------------------4--|------------------|
|-------------------------------|--------------------4--|------------------|
|-0h3h7--12p7p3--0h3h7--12p7p3--|-0h3h7--12p7p3--0---2--|2--2--2--2--2--2--|
|-------------------------------|-----------------------|------------------|
 
|------------------------|----------------|--------------------------------|
|---------------------4--|----------------|--------------------------------|
|------------------------|-5-4-2-------5--|-4-2----------4-----------------|
|------------------------|-------5-4-2----|-----5-4-2-1--2-----------------|
|2--2--2--2--2--2--2-----|----------------|--------------------------------|
|------------------------|----------------|--------------------------------|
|                        |                |                                |
|                        |                |                                |
|---------------------2--|----------------|--------------------------------|
|------------------------|-5-4---------5--|-4------------------------------|
|------------------------|-----5-4-2------|---5-4-2------------------------|
|------------------------|-----------5----|---------5-4-2------------------|
|------------------------|----------------|--------------------------------|
|------------------------|----------------|--------------------------------|
 
    
|--------------|-----------------|-----------------|-----------------------|
|--------------|-----------------|-----------------|----------------0------|
|--------------|-----------------|-----------------|-----------------------|
|--------------|-----------------|-----------------|-----------------------|
|-7------------|-----------------|-----------------|-----------------------|
|--------------|-----------------|-----------------|-----------------------|
 
|-0------------|-----------------|-----------------|-----------------------|
|-0------------|-----------------|---3-------------|-----------------------|
|-0------------|-----------------|---0-------------|-----------------------|
|-2------------|-----------------|---2-------------|------------------4----|
|-2------------|-----------------|---2-------------|------------------6----|
|-0------------|-----------------|---0-------------|-----------------------|
 
|--------------|-----------------|-----------------|-----------------------|
|--------------|-----------------|-----------------|-----------------------|
|--------------|-----------------|-----------------|----------------7------|
|---------5----|----------------4|-------------5---|----------------6------|
|---------7----|----------------6|-------------7---|----------------7------|
|--------------|-0--0--0--0--0---|-------------0---|-0--0--0--0--0---------|
 
|----------|------------------|-----------|20p19p17-------------------------
|----------|------------------|-----------|---------20p19p17p16-------------
|------5---|---------------6--|--------8--|---------------------17p16-------
|------7---|---------------8--|--------9--|---------------------------19p17p
|----------|0--0--0--0--0-----|-----------|---------------------------------
|----------|------------------|-----------|---------------------------------
 
----------|--------------------|----------------------|--------------------|
----------|--------------------|--------------------5-|--------------------|
----------|--------------------|--------------------5-|--------------------|
16--------|-5------------------|--------------------5-|--------------------|
---19p18--|-7------------------|----------------------|--------------------|
----------|---0--0--0--0--0--0-|0--0--0--0--0--0--0---|0--0--0--0--0--0----|
 
|---------------------|-------------|-----------|--------------|-----------|
|---------------------|-------------|-----------|5-----------4-|-----------|
|------------5-----2--|-2------s14--|-----------|4-----------4-|-----------|
|------------5-----2--|-2-----------|-----------|4-----------4-|--------5--|
|------------3-----0--|-0-----------|-----------|2-2-2-2-2-2---|2-2-2-2-7--|
|0--0--0--0-----------|-------------|-----------|--------------|-----------|
 
|--------------|------------------|--------------|-------------------------|
|--------------|----------5-------|--------------|-----5---------5---------|
|--------------|----------5-------|--------------|-----5---------5---------|
|5-------------|--5---5---5-------|--------------|-----5---------5---------|
|7-------------|--7---7-----------|--------------|-------------------------|
|--0-0-0-0-0-0-|0---0---0---------|--------------|-------------------------|
 
|----------------------------|--------------------|-------------|-----------|
|----------------------------|------------------5-|-------------|-----------|
|----------------------------|------------------4-|-------------|-----------|
|----------------------------|------------------4-|-------------|-----------|
|0-3-7-t12-7-3-0-3-7-t12-7-3-|-0-3-7-t12-7-3-0--2-|-2-2-2-2-2-2-|2-2-2-2-2-2|
|----------------------------|--------------------|-------------|-----------|
 
|-----------------|---------------|------------------|---------------------|
|4----------------|---------------|------------------|---------------------|
|--5-4-2-------5--|-4-2---------4-|---------------4--|-4--4-4-4--5---------|
|--------5-4-2----|-----5-4-2-1-2-|-2-------------1--|-2--4-4-5--7---------|
|-----------------|---------------|-2----------------|---------------------|
|-----------------|---------------|-0--0-0-0-0-0-----|---------------------|
 
|-----------|-------------|------------------|-----------------------------|
|-----------|-------------|------------------|-----------------------------|
|-----------|-------------|----------------4-|---4--4--4--4------5---------|
|---7s9~----|-------9-----|----------------1-|---2--4--4--5------7---------|
|-----------|-------7-----|------------------|-----------------------------|
|-----------|-------0-----|-0--0--0--0--0----|-----------------------------|
 
|-----------|------------------|--------------------|----------------------|
|--------11-|--12---12s--------|--------------------|----------------------|
|--------11-|--11---11s--------|------------------4-|--4--4---4------------|
|--------11-|--13---13s-----5--|-9----------------1-|--2--4---5----5s7~----|
|-----------|---------------7--|-7------------------|----------------------|
|-----------|------------------|-0--0--0--0--0--0---|----------------------|
 
|-----------|-------------------|--------------------|---------------------|
|-----------|-------------------|--------------------|---------------------|
|-----------|-------------------|------------------4-|--4--4--4------------|
|---------5h|7p5-4-5-7p5p4------|------------------1-|--2--4--5-----7------|
|-----------|---------------7p6h|7s------------------|---------------------|
|-----------|-------------------|----0--0--0--0--0---|---------------------|
 
|-----------|-------------0-----|----------------x---|---------------------|
|-----------|-------------0-----|----------------x---|---------------------|
|-----------|-------------0-----|----------------x---|---------------------|
|-----------|-----4-------2-----|--------------------|---------------------|
|-------4---|-----2-------2-----|--------------------|---------------------|
|-------2---|-------------0-----|--------------------|-----------15s-------|
 
|----------------15p12-12-15p12p0-|-12p0h7-12p7p0-15----12-15p12p0-|-19p0h15
|19p0h15-18p15p0------------------|------------------12------------|--------
|---------------------------------|--------------------------------|--------
|---------------------------------|--------------------------------|--------
|---------------------------------|--------------------------------|--------
|---------------------------------|--------------------------------|--------
 
18p15p12p0-|-12p0h7-12p7p0-7p0h3-7p3p0-|-----------------15p12-12-15p12p0--|
-----------|---------------------------|-19p0h15-19p15p0-------------------|
-----------|---------------------------|-----------------------------------|
-----------|---------------------------|-----------------------------------|
-----------|---------------------------|-----------------------------------|
-----------|---------------------------|-----------------------------------|
 
-12p0h7-12p7p0-15----12h15p12p0-|-19p0h15-18p15p0-15----12-15p12p0-|12p0h7--
------------------12------------|--------------------12------------|--------
--------------------------------|----------------------------------|--------
--------------------------------|----------------------------------|--------
--------------------------------|----------------------------------|--------
--------------------------------|----------------------------------|--------
 
12p7p0-7p0h3-7p3p0-|-5p2-------11p8----------8-|-8p5-----------14p11--------
-------------------|-----4----------10----10---|-----7------10-------13-----
-------------------|-------5-----------11------|-------8-11-------------14--
-------------------|---------------------------|----------------------------
-------------------|---------------------------|----------------------------
-------------------|---------------------------|----------------------------
 
----11-|-11p8----------8-17p14--------|-14p11--------s20~--|----------------
-13----|------10----10---------16-----|-------13-----------|8p0h5-8p5p0-----
-------|---------11---------------17--|----------14--------|----------------
-------|------------------------------|--------------------|----------------
-------|------------------------------|--------------------|----------------
-------|------------------------------|--------------------|----------------
 
-7h10-3-7p3p0-|-12p0h7-12p7p0-15----12-15p12p0-|-17p0-0-18p15p0-12-15p15p0-|
--------------|------------------12------------|---------------------------|
--------------|--------------------------------|---------------------------|
--------------|--------------------------------|---------------------------|
--------------|--------------------------------|---------------------------|
--------------|--------------------------------|---------------------------|
 
|-12p7p0-12p0-------11h12-14p12p11----|-------------------------------------|
|-------------12h13----------------13p|12p10-12p10--------------------------|
|-------------------------------------|------------12p11-9p8----------------|
|-------------------------------------|----------------------10p9p7---------|
|-------------------------------------|-----------------------------10p9p7p6|
|-------------------------------------|-------------------------------------|
 
|------19----|-19h20-17-20----20-|----20----20-----|-21p18----18p15---------
|------------|-------------20----|-19----17----17~-|-------20-------17------
|------------|-------------------|-----------------|------------------------
|------------|-------------------|-----------------|------------------------
|------------|-------------------|-----------------|------------------------
|------------|-------------------|-----------------|------------------------
 
15p12----18p15----|-15p12----15---14-12-|-15p14----------14-14--------------
------14-------17-|-------14------------|-------17-16h17-------17p16h17-----
------------------|---------------------|-----------------------------------
------------------|---------------------|-----------------------------------
------------------|---------------------|-----------------------------------
------------------|---------------------|-----------------------------------
 
14h15----|-14-15-17-15-17-19-19~-|---20-19-20-17-20----20-|---20----20------
------17-|-----------------------|------------------20----|19----17----16---
---------|-----------------------|------------------------|-----------------
---------|-----------------------|------------------------|-----------------
---------|-----------------------|------------------------|-----------------
---------|-----------------------|------------------------|-----------------
 
------15h17|h19-17-19p17-19---15h17-|-17-15---15~--|-15-15-18-15----15-15-15|
17h19------|------------------------|--------------|-------------17---------|
-----------|------------------------|--------------|------------------------|
-----------|------------------------|--------------|------------------------|
-----------|------------------------|--------------|------------------------|
-----------|------------------------|--------------|------------------------|
 
|12-12-12-------12-12----12-|14h15p14----------14-------------|14-15-14-----
|---------14-14-------14----|---------17p16h17----17-16-16-17-|---------17--
|---------------------------|---------------------------------|-------------
|---------------------------|---------------------------------|-------------
|---------------------------|---------------------------------|-------------
|---------------------------|---------------------------------|-------------
 
                                                             1/2
------14----14-15----14-15-|---14-15-14----17-17s---5-7-|-19-19b-----------|
16-17----17-------17-------|17----------17--------------|------------------|
---------------------------|----------------------------|------------------|
---------------------------|----------------------------|------------------|
---------------------------|----------------------------|------------------|
---------------------------|----------------------------|------------------|
 
|rb(19)-18-19-|-19--20bf--|-------17----------17----|----19~p0--------|-----
|-------------|-----------|-20bf-----20bf-rb-----20-|-17-------22bf-rb|-22bf
|-------------|-----------|-------------------------|-----------------|-----
|-------------|-----------|-------------------------|-----------------|-----
|-------------|-----------|-------------------------|-----------------|-----
|-------------|-----------|-------------------------|-----------------|-----
 
15-17-19-17-15-|-17-15-14-15-14-------14----------------------|-------------
---------------|----------------17-15----17-15-13-17-15-13-12-|-15-13-12----
---------------|----------------------------------------------|----------14-
---------------|----------------------------------------------|-------------
---------------|----------------------------------------------|-------------
---------------|----------------------------------------------|-------------
 
------------------------|----------------------------------|------15p12-----
13-12-------12----------|-------------------------12-17p12-|---12-----------
------14-12----14-12-11-|-14-12-11----12-11----12----------|12--------------
------------------------|----------14-------14-------------|----------------
------------------------|----------------------------------|----------------
------------------------|----------------------------------|----------------
 
19p15-------|-12-------|-(15)-14-15p14p12-14--|------------|-15-14-12-------
------17----|----15bf--|----------------------|------------|----------15bf--
---------16-|----------|----------------------|------------|----------------
------------|----------|----------------------|------------|----------------
------------|----------|----------------------|------------|----------------
------------|----------|----------------------|------------|----------------
 
         1/2
12-----------------------|-----14s-12-------|------------------|------------
---12-15-----------------|------------------|------------------|------------
---------14b--rb14-p12~--|-s11-----s9--9-11s|12-9-11-----------|----------13
-------------------------|------------------|---------------13-|-------13---
-------------------------|------------------|---------11h14----|-11h14------
-------------------------|------------------|------------------|------------
 
                  Keyboard solo                                 pick slide
---11-14bf--|--14----|----------|--------------|---------------|------------
12----------|--------|----------|--------------|---------------|------------
------------|--------|----------|--------------|---------------|--x---------
------------|--------|----------|--------------|---------------|--x---------
------------|--------|----------|--------------|---------------|------------
------------|--------|----------|--------------|---------------|------------
 
----------|----------------------------15h19-|-20p19-19p14----14p11--------|
----------|-------------------16h17h19-------|-------------16-------13-----|
----------|----------16h17h19----------------|-----------------------------|
16h17h19--|-16h17h19-------------------------|-----------------------------|
----------|----------------------------------|-----------------------------|
----------|----------------------------------|-----------------------------|
 
                     1/2
|14p13-12-11-12-|-12-12b-14-12-11-|-12-11-------11----------|---------------
|---------------|-----------------|-------13p12----13p12----|13p12----------
|---------------|-----------------|----------------------14-|------14p12-16-
|---------------|-----------------|-------------------------|---------------
|---------------|-----------------|-------------------------|---------------
|---------------|-----------------|-------------------------|---------------
 
--------------------|------------|---------------------|--------------------|
--------------------|------------|---------------------|--------------------|
---16----16---------|---14dive---|p11~-----------------|--------------------|
16----14----13------|------------|---------12~---------|--11~-----9h10------|
--------------------|------------|---------------------|--------------------|
--------------------|------------|---------------------|--------------------|
 
|------------|------------------------------|--------------12-8-11-12-11-8-|
|------------|------------------------------|10-7-8-10-8-7-----------------|
|------------|---------------11-8-9-11-9-8--|------------------------------|
|p9--7h9--9--|-10-7-9-10-9-7----------------|------------------------------|
|------------|------------------------------|------------------------------|
|------------|------------------------------|------------------------------|
 
 
|14-11-12-14-12-11-15-12-14-15-14-12-|17-12-14-15-14-12-17-12-14-15-14-12--|
|------------------------------------|-------------------------------------|
|------------------------------------|-------------------------------------|
|------------------------------------|-------------------------------------|
|------------------------------------|-------------------------------------|
|------------------------------------|-------------------------------------|
 
|17-12-14-15-14-12s19-|--(19)------------------|--------------(19)---------|
|---------------------|------------------------|---------------------------|
|---------------------|------------------------|---------------------------|
|---------------------|------------------------|---------------------------|
|---------------------|------------------------|---------------------------|
|---------------------|------------------------|---------------------------|
 
-Benighted-05.06.2004 22:01:03
mulle tuli visio:
 
http://personal.inet.fi/taide/kakofonia/Arla.mp3

 
Tuo oli aivan loistava:D
rockrules05.06.2004 22:03:02
Tehtiin Serla-mainos:
http://www.mikseri.net/www/play.php?type=hi&id=66434
Kemppilä05.06.2004 23:28:56
Tehtiin Serla-mainos:
http://www.mikseri.net/www/play.php?type=hi&id=66434

 
Sepä oli mielenkiintoinen.
Antti198705.06.2004 23:41:55
Kokeillaanpas:
 
(Taustalla _rankkaa_ heviä!)
On olo kuin Roope Ankalla,
kun ajaa autolla rankalla,
pääset lähelle tyttöjen syliä,
kun kruisailet pitkin kyliä!
 
(Hevi loppuu, tilalle pari akustisen kitaran plinkautusta)
Skoda. Tosimiehen valinta.
Antti198706.06.2004 00:42:32
Tai:
 
Ei haittaa jutut Mahen, Turbon,
kun laitat huulille kylmän Kurkon!
 
eller:
 
Niin paraneep` pojasta polvi,
kun on pojalla olut, Olvi.
Antti198706.06.2004 00:47:11
Vieläköhän lähtis...
Höm.
 
"On edessäs ilta uus, kun on Karhuja päkissä kuus!"
Antti198706.06.2004 00:51:51
"Tietäähän sen jopa sokia, että paras teevee on Nokia"
"Kyllä vaarikin jo rokkaa, kun saa kupin juhlamokkaa!"
"Osta sinäkin Taman rummut, niin saa kyytiä naapurin mummut!"
"Älä ole molo, osta uusi VW Polo!"
 
Nyt saa luvan riittää.
Snowblind06.06.2004 00:54:15
Teevee? Nokia?!
Antti198706.06.2004 00:55:01
Teevee? Nokia?!

Jjjjoooooo... Kait niitä on nokian telkkareita...
Snowblind06.06.2004 00:57:14
Jjjjoooooo... Kait niitä on nokian telkkareita...
 
Eeköhän niissä luureissakin kohta telkkaritkin ole...
slipoilfan06.06.2004 02:01:28
kyllä se nokia tekee ihan normaaleja telkkujakin..
Snowblind06.06.2004 02:23:53
kyllä se nokia tekee ihan normaaleja telkkujakin..
 
No höh, ei ole munla ainakaan vastaan tullut.
Aerodactev06.06.2004 13:01:00
"Kyllä vaarikin jo rokkaa, kun saa kupin juhlamokkaa!"

 
Ei vittu! Tämä oli jo niin körsö että tämän mainoksen esittäminen saisi heittämään radion/tv:n ikkunasta ulos ja vielä varmistamaan kaiken hakkaamalla sitä kirveellä.
ritchie06.06.2004 13:56:21
Tehtiin Serla-mainos:
http://www.mikseri.net/www/play.php?type=hi&id=66434

 
Paras, varsinkin Lazy tuolla välissä iski muhun.
Hirvi06.06.2004 14:20:29
kyllä se nokia tekee ihan normaaleja telkkujakin..
 
Niin, tässä todiste:
http://www.mascom.cz/tv/6361.htm
 
Nokia kumisaappaita:
http://www.123rubberboots.com/pics/katja120.jpg
http://www.123rubberboots.com/pics/riica120.JPG
mOoNnA06.06.2004 22:37:16
nrj shit music only
Da Make06.06.2004 22:43:21
"Jo siintää tähtien rata, osta meiltä joulu-tavarata."
 
-JKL, pikkuliikkeen ikkuna joulun aikaan...
jussiohman06.06.2004 22:48:07
16-osina death - säröllä sahaten, ylipirteästi kailottaen Óla M. Alatalo:
 
e5
Tuu kanssani Puuhamaahan
e5
Ihanaan ja jännään maahan
e5
Sut mukaani sinne saanhan
e5
Kun käyn mä Puuhamaahan
Nimismies06.06.2004 23:12:41
Saakeli, on mulla hyvä mankeli
 
Ei haittaa vaikkon kesäkeli
 
Kun mulla on metrinen mankeli
-Benighted-06.06.2004 23:18:58
Saakeli, on mulla hyvä mankeli

Ei haittaa vaikkon kesäkeli

Kun mulla on metrinen mankeli

 
Mitäköhän tällä meinasit mainostaa? Kyllähän tietenkin heti tekis mieli ostaa uusi mankeli, jos tämmöisen laulun kuulis.
Bilharzia06.06.2004 23:22:55
EAEAEAEAEAEAGGGGGDD
 
MINÄ OLEN KAUPASSA!!!
 
EAEAEAEAEAEAGGGGGDD
 
TULE SINÄKIN KAUPPAAN!!!
 
EAEAEAEAEAEAGGGGGDD
 
MINÄ OLEN KAUPASSA!!!
 
EAEAEAEAEAEAGGGGGDD
 
TULE SINÄKIN KAUPPAAN!!!
 
EAEAEAEAEAEAGGGGGDD
 
MINÄ OLEN KAUPASSA!!!
 
EAEAEAEAEAEAGGGGGDD
 
TULE SINÄKIN KAUPPAAN!!!
 
EAEAEAEAEAEAGGGGGDD
 
MINÄ OLEN KAUPASSA!!!
 
EAEAEAEAEAEAGGGGGDD
 
TULE SINÄKIN KAUPPAAN!!!
 
G----Bb---Em------A
Minä Nain Norsu - Ja!!
Decadetroll07.06.2004 00:07:39
A
Tule kauppaan

E
Meillä on kaikkee... jne jne...

 
ei helvetti, pelasti kyllä illan.. repesin totaalisesti. Teeppäs tästä biisi ja pistä jakoon!
toxic07.06.2004 13:10:07

       Kauppaan____________________
I.gtr.Clean.
"let ring" :D
   Em 
II--0---0-----------------------------II
II--0---0-0---------------------------II
II*-0-----0--------------------------*II
II*-2-----2--------------------------*II
II--2---------------------------------II
II--0---------------------------------II
 
Kauppaan__ Perkeleen  Huora! KAUPPAAN!!1!!111
 
II.gtr.PigKillingDeathMetalGain.
 
I--------------------------------------I
I--------------------------------------I
I----------------------7---------------I
I-2----------5---------7---------------I
I-2----------5---------5---------------I
I-0-0-0-0-0--3-3-3-3-3---0-0-----------I
 
 VooaaaVoooaaaVooaaVooaaVooaaVooaaVooaa
 
I&II.gtr.GayYnkkäTilua.
                                      T
I-11p7---------7-12p8--------------8-15p12p8--I
I-----7-------7------8------------8-----------I
I------7-----8--------8----------8------------I
I-------9---9----------10------10-------------I
I--------9-9-------------10--10---------------I
I---------7-----------------8-----------------I
 
I.gtr.Clean.
  Kaup-paan~~~~~~
I-2----3-----------I
I-3----3-----------I
I-2----3-----------I
I-0----5-----------I
I------5-----------I
I------3-----------I
Aerodactev07.06.2004 13:12:55
E5
Onko SERLA«n paperi liian pehmeää
F#5
NO PYYHI HIEKKAPAPERIIN
G5
Paska roiskuu veri lentää
Cmaj(b9)sus4(add#11)
SIIS PYYHI HIEKKAPAPERIIN
NHR07.06.2004 16:36:29
mulle tuli visio:
 
http://personal.inet.fi/taide/kakofonia/Arla.mp3

 
Aika mainio. Myykää tuo Arlalle ja pankaa miljoonat puoliksi...
 
Tällainen R-kioskin mainos voisi toimia, ainakin THV-maailmassa:
 

  C         F        G          C        
|----0----|--------|----------|-0-------0-|
|-1-----1-|------1-|-3--1--3--|-----1-----|
|---------|-2------|----------|-----------|
|---------|--------|----------|-----------|
|---------|--------|----------|-----------|
|---------|--------|----------|-----------|
 
 Tyh-mä ja läs - ki poi-ka-kin tie-tää: ei
 
  F         G          A         Eb
|-1-----1-|-3------3-|-5-------|----------|
|----1----|----3-----|----5----|----------|
|---------|----------|-------6-|-8--------|
|---------|----------|---------|----8~----|
|---------|----------|---------|----------|
|---------|----------|---------|----------|
 
 Är-räl-lä hal-vem-paa oo.
 
                      A
|-------------------|---|
|-------------------|---|
|-------------------|---|
|-7--6--5-----------|-7-|
|-----------7--6--5-|-0-|
|-------------------|---|
 
 Vi-tun ve-ren-i-mi-jät!

 
3/4-tahdilla tuossa siis mennään, jos ei joku huomannut.
lapio07.06.2004 18:51:17

D    C      A
Osta maidot Arlalta.
 
D     C      A
Hymyilevältä Karjalta
 
D      C    A
Lypsin Itse Haarukalla!
 
|--------------|-------------|
|--5-7-5-7-5---|-------------|
|--------------|-4--5~-------|
|--------------|-------------|
|--------------|-------------|
|--------------|-------------|

 
Edit: säätöä

 
http://batman.jypoly.fi/~c1241/Maidot.mp3
 
Siinä äänitetty versio. Voin sanoa puolustuksekseni, että alkomahoolia oli nautittu.
-Benighted-07.06.2004 19:05:34
http://batman.jypoly.fi/~c1241/Maidot.mp3
 
Siinä äänitetty versio. Voin sanoa puolustuksekseni, että alkomahoolia oli nautittu.

 
Jos tuo pääsee joskus arlan mainokseen, niin lupaan ostaa yhtiön.(pitäis tuo Polfuksenkin versio saada siihen(laulu vain mukaan)
Bilharzia07.06.2004 19:47:01
http://batman.jypoly.fi/~c1241/Maidot.mp3
 
Siinä äänitetty versio. Voin sanoa puolustuksekseni, että alkomahoolia oli nautittu.

 
Upeeta!! AIVAN UPEETA!!
Antti198707.06.2004 21:09:02
http://batman.jypoly.fi/~c1241/Maidot.mp3

Siinä äänitetty versio. Voin sanoa puolustuksekseni, että alkomahoolia oli nautittu.

 
Loistavaa!
Closure08.06.2004 00:47:35
Loistavaa!
 
Kohta on munkin biisi valmis.. pitäis vaan keksiä tuote ja sanat..
Antti198708.06.2004 00:50:07
Kohta on munkin biisi valmis.. pitäis vaan keksiä tuote ja sanat..

Minäkin voisin tehdä, mutten saisi sitä tällä modeemilla kuitenkaan nettiin asti... tai pitää kokeilla jos tekee niin lyhyen ja huonolaatuisen.
edutheman08.06.2004 00:50:09
Lisää tällasii ! pitkästä aikaan näinkin piristävä topicki ! ! !
Da Make08.06.2004 00:57:00
Lisää tällasii ! pitkästä aikaan näinkin piristävä topicki ! ! !
 
Niinpä!
lapio08.06.2004 01:14:50
Kohta on munkin biisi valmis.. pitäis vaan keksiä tuote ja sanat..
 
Tässä on:
 
Ruskeaa ja pehmeää
maukasta ja vetelää.
 
Suurinta herkkuani on tää
Vastustaa en voi mämmiää!
Snowblind08.06.2004 02:41:37
Lisää tällasii ! pitkästä aikaan näinkin piristävä topicki ! ! !
 
Ihanata.
sepeli08.06.2004 12:13:46
Oletko valmis seksiin
Muttet kehtaa ostaa settii
Nämä uudet kondomit
on saaneet feikkipaketit
Ei äiti epäile: "nussii!"
Kun kannat "karkkipussii"!!!1!
 
Röh.
IbanezenabI08.06.2004 17:18:22
http://batman.jypoly.fi/~c1241/Maidot.mp3
 
Siinä äänitetty versio. Voin sanoa puolustuksekseni, että alkomahoolia oli nautittu.

 
Hoho! Aivan mahtava. Pelasti päiväni. :D
Necromuru09.06.2004 00:39:57
Mainos no. 2
C __________G
Osta meiltä hummereita
C___________F
Osta meiltä skannereita.
C__________G
Osta meiltä mitä haluat
C__________F _____________F___G__C
Kunhan ostokses maksa-at kas-sal-a
 
Ja tässä Guitar Pro4 versio:
 
http://www.mikseri.net/artistit/?id=32613&update=1
NHR09.06.2004 11:46:44
Tämmöönen synty:
 
www.sunpoint.net/~NNHR/sounds/NHRmainos1.mp3
 
"Syökää Pembölen leipomon leipää, jota ihmisetkin syö...
kuin leipää!"
Antti198709.06.2004 19:30:21

G5          D#5
Hevi tulee, hevi tappaa
C5             A#5
Tuskaan kaikki väki lappaa,
    G5            D#5
Jos tahdot kunnon festareille,
C5        A#5
tule suosiolla meille!
G6            G7
Poriiiiiiiiii Jazz!
 
PoLFus09.06.2004 21:38:38
Korson kevätrieha 26.4-3.7 2004
 
country (mikko alatalon äänellä, teräskielinen kitara takana):
 
C
Tule sinäkin korsoon, mmm
aaaaa (vou)
 
Am
Tule sinäkin kevätriehaan, ooh
 
F
Tänne vielä löydät..
 
G C
Siis koo-rr-soo-oon.
Antti198710.06.2004 15:16:45
Löysin eilen komeroa siivotessani Popfinlandia-nauhoituksen vuodelta 2000. Siinä näytettiin kaikkia vanhoja mainoksia. Kyllä minäkin varmaan joisin piimää kun näkisin tämmöisen mainoksen(!):
"Piimää juo kun väsyttää,
Valion piimä virkistää,
Myös piimä kunnon kohentaa
ja vyötärönne ohentaa!
Valion Valion Piimääää!"
 
Siinä oli semmoinen hieno animaatio ja taustalla soi musiikki.
Lord_of_the_strings10.06.2004 15:51:00
C                    
Syökää kanaa! 
Em                 
Syökää kanaa!
G
Saatana! 
D
I'm loving it.

 

 
Runsaasti efektejä peliin...
Nimismies12.06.2004 02:19:58
Vitun Teemu, tuo lause "Körsöimmät mainosjöllötykset" pyöri päässäni koko 7,5 tuntia kestäneen työpäivän ajan. Tyyliin: "Tee hampurilainen", "Körsöimmät mainosjollotukset", "Palvele asiakasta", "Körsöimmät mainosjollotukset".
 
Niin että terveisiä perseestä!
Shemhamforash12.06.2004 14:32:24
Tämä on kyllä loistavin ketju aikoihin!
 
Kehittäkääpäs joku parempi zerofoftymikälie -mainosrallatys. Minulla ei nyt synny ideoita.
 
Hitto vie, mietin näitä kuitenkin loppupäivän.
Shemhamforash12.06.2004 14:43:37
E
Yks kakkaa, kaks kakkaa
 
A
Muuta sitten ei tarvitakkaan, kuin
 
E
SERLA!
 
...Hump-pap-paa hump-pap-paa...
John Spade12.06.2004 14:58:48
Tuli tehtyä humalluspäissään mainosbiisi viikon päästä järjestettävälle Pylsyrock-tapahtumalle. Tätä körsömpää mainosjollotusta ei löydy.
 
http://batman.jypoly.fi/~71889/Pylsyrockia.mp3
Shemhamforash12.06.2004 22:04:56
http://batman.jypoly.fi/~71889/Pylsyrockia.mp3
 
Tämä on oikeasti aivan kamalan kuuloinen. Huhhuh.
moottorisaha12.06.2004 22:24:10
Voit luottaa säästöpankkiin, aina!
Bilharzia13.06.2004 00:44:23
Tuli tehtyä humalluspäissään mainosbiisi viikon päästä järjestettävälle Pylsyrock-tapahtumalle. Tätä körsömpää mainosjollotusta ei löydy.
 
http://batman.jypoly.fi/~71889/Pylsyrockia.mp3

 
Erittäin körsö. Körsöys suorastaan pullahtaa.
Aerodactev13.06.2004 14:04:09
Isännän rattori OY - osta miulta rattori?
 
http://koti.mbnet.fi/temuz/rattori.mp3
Viceroy13.06.2004 18:06:39
Isännän rattori OY - osta miulta rattori?
 
http://koti.mbnet.fi/temuz/rattori.mp3

 
Hohhoh että putosin! Plussaa mullettimiehelle!
Leper13.06.2004 18:39:47
E E A D
Uusi,pehmeä Serlan Bercele
 
G Em Em A A D
Myöskin sinun herkälle perseellee
Shemhamforash13.06.2004 19:12:50
Isännän rattori OY - osta miulta rattori?
 
http://koti.mbnet.fi/temuz/rattori.mp3

 
Hoohoohoo paras tähän mennessä!
 
Eiköhän pidetä tästä jokin äänestys?
XernaX13.06.2004 19:26:33
Isännän rattori OY - osta miulta rattori?
 
http://koti.mbnet.fi/temuz/rattori.mp3

 
Aivan mahtava! +
PoLFus13.06.2004 20:41:21
Aivan mahtava! +
 
loistava.
hjukke13.06.2004 21:30:33
Isännän rattori OY - osta miulta rattori?
 
http://koti.mbnet.fi/temuz/rattori.mp3

 
Yllättävän Körsö!
Necromuru13.06.2004 22:05:04
Isännän rattori OY - osta miulta rattori?
 
http://koti.mbnet.fi/temuz/rattori.mp3

 
UAHHAAHHAHAHAAA! repesin totaalisesti.
Metallica mies13.06.2004 23:03:05
C                    
Syökää kanaa! 
Em                 
Syökää kanaa!
G
Saatana! 
D
I'm loving it.

 

 
Runsaasti efektejä peliin...

 
hoho, sait plussan.
Kabanossi14.06.2004 10:28:25
Missäs helevetissä on se kaupan myyjä,
hyllyssä ei ole kuin Serlan perseensyöjä.
 
Kitaralla vapaasti kompaten.
hessurf14.06.2004 12:22:31
Isännän rattori OY - osta miulta rattori?
 
http://koti.mbnet.fi/temuz/rattori.mp3

 
LOISTAVA!!!
hessurf14.06.2004 12:26:30
Tuli tehtyä humalluspäissään mainosbiisi viikon päästä järjestettävälle Pylsyrock-tapahtumalle. Tätä körsömpää mainosjollotusta ei löydy.
 
http://batman.jypoly.fi/~71889/Pylsyrockia.mp3

 
Tuli tuosta mieleen ihan Kummelin Timo Kahilainen, oli saman kuulonen jossain kohin.
Bilharzia14.06.2004 12:34:07
Isännän rattori OY - osta miulta rattori?
 
http://koti.mbnet.fi/temuz/rattori.mp3

 
Markkinoinnin multihuipennus. Hoho!
Necromuru14.06.2004 22:20:25
Isännän rattori OY - osta miulta rattori?
 
http://koti.mbnet.fi/temuz/rattori.mp3

 
On muuten aivan loistava "vanha isäntä" imitaatio. Tolta ne kuulostaa.
 
Edit: Paitsi traktoria ei koskaan äännetä rattori. raktori se on.
Kyllä, Olen maalta.
Aerodactev14.06.2004 23:07:09
Edit: Paitsi traktoria ei koskaan äännetä rattori. raktori se on.
Kyllä, Olen maalta.

 
Kyllä, olen maalta. Täällä päin sanotaan raktori tai rattori. Vaikkakin jälkimmäinen on lasten suosiossa enemmän.
aust15.06.2004 00:17:09
Voi vittu ja minä luulin keksineeni lapsena tuon otsikon adjektiivin. Köysä on toinen, siihen en ole vielä törmännyt.
enema26.04.2005 22:50:36
Koska viestinnän tunnilla piti tehdä mainoskampanja, voisin nyt nostaa tämän mainion aiheen.
lapio26.04.2005 22:53:49
Koska viestinnän tunnilla piti tehdä mainoskampanja, voisin nyt nostaa tämän mainion aiheen.
 
Voisikin joku päivä tässä tehdä uuden mainosjollotuksen.
lapio26.04.2005 23:18:46

A       E         A
Juustoa keltaista maukasta
 
D       C        D
nauttia saat, oi herkkua
 
A         E         A
tällaista saat vaan arlalta!
 
A       E    A
Valkoisista lehmistä
 
D        C   D
lypsetty on maitoa
 
A     E  A
se ei oo hapanta
 
Loppuun:
E-------------------------
H--8-5-------------------
G-------7-6--------------
D------------7----5-7----
A-------------------------
E-------------------------
nugetti27.04.2005 00:47:16
Rainerin kaupasta
1.
D                 G
Rainerin kaupasta halvalla saa
D                 G
Rainerin kaupasta halvalla saa
D                 G
Rainerin kaupasta halvalla saa
D            Dsus4  
Suolaista ja makiaa
 
2.
D                 G
Rainerin kaupasta halvalla saa
D                 G
Rainerin kaupasta halvalla saa
D                 G
Mutta jos koitat Raineria puukottaa
D                    Dsus4
Et Rainerin kaupasta halvalla saa
 
Soolo (tilutat jotain)
 
3=2.
 
Outro
 
|---------------------3---------|
|---------------------3---------|
|------0-2-2b-2br-0~~-0---------|
|-0h2-----------------0---------|
|---------------------x---------|
|---------------------3---------|
Rumpali Rölli27.04.2005 10:08:02
Omg Lol Juoppas Coke.
Ja lyö käsillä tahtia
nugetti27.04.2005 21:06:48
Ylös, mahtithread!
lapio27.04.2005 23:42:31
Ylös, mahtithread!
 
Odotas, kun huomenna päissään nauhoitan tuon uuden biisini.
Pelsi28.04.2005 00:24:33
Irrationaalinen skenaario, jossa mainostettaisiin amfetamiinia radiossa.
 
Ei maistu meille konjakki
Eikä tuopillinen lain
Enkä ilahtunut laisinkaan
Kun enoltani kiljua sain
Mut onhan jotain sellaista
Joka pysyy vatsassain
Jo tahdon alkaa vetämään
tätä vauhtinappia vain!
 
Meidät löydät ärrän pihasta
Siispä meitä etsimään tuu
Ja kun setää nyit hihasta
Ei enää kelpaa mikään muu
Mutta eihän kytille kerrota
Teillä supussa pysyy suu
Koska kaikki kohta olette
Koukussa spiidiin juu!!
 
Spiii-iiiii-iiiiid!
That's all you need!
lapio28.04.2005 13:23:00
Irrationaalinen skenaario, jossa mainostettaisiin amfetamiinia radiossa.
 
Voinko tehdä tästä biisin? Speed metallia.
wrshredder28.04.2005 14:18:18
(Säröllä tuplabasareilla ja Norjaörinällä)(.. 200 bmp)

Em
"Saisinko osan urheilusivua"
 
Em Dm Am Em
"Seuraavaksi kai pyydät yhden.. rieseneistäni!!!"
 
"AAAAAARGHHH JAUJAUJAUJAU..." (rumpali pieksee basistin valurautapaistinpannulla ja paskoo napalmia ympäri treenikämppää...)
LassiÖ28.04.2005 14:42:46
Teinpäs tuohon amfetamiinibiisiin soinnut:
 
D
Ei maistu meille konjakki
G
Eikä tuopillinen lain
hm
Enkä ilahtunut laisinkaan
A
Kun enoltani kiljua sain
D
Mut onhan jotain sellaista
G
Joka pysyy vatsassain
hm
Jo tahdon alkaa vetämään
A
tätä vauhtinappia vain!

D
Meidät löydät ärrän pihasta
G
Siis meitä etsimään tuu
hm
Ja kun setää nyit hihasta
A
Ei kelpaa mikään muu
D
Mutta eihän kytille kerrota
G
Teillä supussa pysyy suu
hm
Koska kaikki kohta olette
A
Koukussa spiidiin juu!!
D
Spiii-iiiii-iiiiid!
G A D
That's all you need!
 
Edit: Nyyh, ei mennyt nuo sointukirjaimet oikeille kohdille, no aina uusi sointu tulee lauseen toisella sanalla paitsi lopussa jossa spiidiin tulee heti d ja allissa vaihtuu G:hen you:ssa A:han ja needissä D:hen
Pelsi28.04.2005 17:12:08
Voinko tehdä tästä biisin? Speed metallia.
 
No mikä ettei.
lapio28.04.2005 17:13:39
No mikä ettei.
 
Hähää, tein jo. Pitää vaan "lauleskella" tuossa, kun joutaa.
Copyright ©1999-2007, Muusikoiden Net ry. Kaikki oikeudet pidätetään.Luotu: 15.02.2007 02:03:08